0
SECTION
2
HEADER
9
$LTSCALE
40
0.5
9
$LIMMIN
10
0
20
0
9
$LIMMAX
10
12
20
9
9
$EXTMIN
10
3.747139
20
0.7220975
9
$EXTMAX
10
9.449674
20
6.990747
9
$SNAPMODE
70
0
9
$SNAPUNIT
10
1
20
1
9
$GRIDMODE
70
0
9
$GRIDUNIT
10
0.2
20
0.2
9
$ORTHOMODE
70
0
9
$TEXTSTYLE
7
txt
9
$CLAYER
8
1
9
$CECOLOR
62
7
9
$CELTYPE
6
CONTINUOUS
9
$OSMODE
70
0
0
ENDSEC
0
SECTION
2
TABLES
0
TABLE
2
STYLE
70
1
0
STYLE
2
MONOTXT
70
0
40
0
41
1
50
0
71
0
42
0
3
MONOTXT
4

0
ENDTAB
0
TABLE
2
LTYPE
70
9
0
LTYPE
2
DASHED
70
0
3
__ __ __ __ __ __ __ __ __ __ __ __ __ __ __
72
65
73
2
40
0.75
49
0.5
49
-0.25
0
LTYPE
2
HIDDEN
70
0
3
_ _ _ _ _ _ _ _ _ _ _ _ _ _ _ _ _ _ _ _ _ _ 
72
65
73
2
40
0.375
49
0.25
49
-0.125
0
LTYPE
2
CENTER
70
0
3
____ _ ____ _ ____ _ ____ _ ____ _ ____ _ __
72
65
73
4
40
2
49
1.25
49
-0.25
49
0.25
49
-0.25
0
LTYPE
2
PHANTOM
70
0
3
_____ _ _ _____ _ _ _____ _ _ _____ _ _ ____
72
65
73
6
40
2.5
49
1.25
49
-0.25
49
0.25
49
-0.25
49
0.25
49
-0.25
0
LTYPE
2
DOT
70
0
3
............................................
72
65
73
2
40
0.25
49
0
49
-0.25
0
LTYPE
2
DASHDOT
70
0
3
__ . __ . __ . __ . __ . __ . __ . __ . __ .
72
65
73
4
40
1
49
0.5
49
-0.25
49
0
49
-0.25
0
LTYPE
2
BORDER
70
0
3
__ __ . __ __ . __ __ . __ __ . __ __ . __ _
72
65
73
6
40
1.75
49
0.5
49
-0.25
49
0.5
49
-0.25
49
0
49
-0.25
0
LTYPE
2
DIVIDE
70
0
3
__ . . __ . . __ . . __ . . __ . . __ . . __
72
65
73
6
40
1.25
49
0.5
49
-0.25
49
0
49
-0.25
49
0
49
-0.25
0
LTYPE
2
DOTS
70
0
3
close
72
65
73
2
40
0.1
49
0.05
49
-0.05
0
ENDTAB
0
TABLE
2
LAYER
70
10
0
LAYER
2
1
70
0
62
7
6
CONTINUOUS
0
LAYER
2
2
70
0
62
7
6
CONTINUOUS
0
LAYER
2
3
70
0
62
7
6
CONTINUOUS
0
LAYER
2
4
70
0
62
7
6
CONTINUOUS
0
LAYER
2
5
70
0
62
7
6
CONTINUOUS
0
LAYER
2
6
70
0
62
7
6
CONTINUOUS
0
LAYER
2
7
70
0
62
7
6
CONTINUOUS
0
LAYER
2
8
70
0
62
7
6
CONTINUOUS
0
LAYER
2
9
70
0
62
7
6
CONTINUOUS
0
LAYER
2
10
70
0
62
7
6
CONTINUOUS
0
ENDTAB
0
ENDSEC
0
SECTION
2
ENTITIES
0
TEXT
8
1
62
7
10
4.973591
20
0.7887641
40
0.2
1
Light Emitting Diode
41
0.6
7
MONOTXT
0
SOLID
8
1
62
7
10
4.995599
20
6.006742
11
8.208627
21
4.408989
12
4.995599
22
2.791011
13
4.995599
23
2.791011
0
LINE
8
1
62
7
10
3.747139
20
4.409393
11
5.008803
21
4.409393
0
LINE
8
1
62
7
10
5.008931
20
5.97648
11
5.008931
21
5.989492
0
LINE
8
1
62
7
10
8.208627
20
6.006742
11
8.208627
21
2.811236
0
LINE
8
1
62
7
10
9.417695
20
4.409393
11
8.15603
21
4.409393
0
LINE
8
1
62
7
10
8.627422
20
4.409393
11
8.627422
21
4.409393
0
LINE
8
1
62
7
10
8.863118
20
5.747259
11
9.33451
21
6.537236
0
LINE
8
1
62
7
10
8.363995
20
6.027573
11
8.835386
21
6.817551
0
SOLID
8
1
62
7
10
8.765537
20
6.894368
11
8.950379
21
6.990747
12
8.946448
22
6.795576
13
8.946448
23
6.795576
0
LINE
8
1
62
7
10
8.950556
20
6.990636
11
8.765488
21
6.894258
0
LINE
8
1
62
7
10
8.907375
20
6.816778
11
8.946443
21
6.794101
0
LINE
8
1
62
7
10
8.766067
20
6.894
11
8.904711
21
6.817551
0
LINE
8
1
62
7
10
8.835404
20
6.816778
11
8.851854
21
6.845124
0
LINE
8
1
62
7
10
8.834787
20
6.817029
11
8.834787
21
6.817029
0
LINE
8
1
62
7
10
8.946443
20
6.79599
11
8.946443
21
6.79599
0
LINE
8
1
62
7
10
8.950556
20
6.990636
11
8.946443
21
6.79788
0
SOLID
8
1
62
7
10
9.264655
20
6.614052
11
9.449497
21
6.710433
12
9.445566
22
6.515261
13
9.445566
23
6.515261
0
LINE
8
1
62
7
10
9.449674
20
6.710321
11
9.26461
21
6.613944
0
LINE
8
1
62
7
10
9.445566
20
6.515675
11
9.445566
21
6.515675
0
LINE
8
1
62
7
10
9.449674
20
6.710321
11
9.445566
21
6.517566
0
LINE
8
1
62
7
10
9.406493
20
6.536463
11
9.445566
21
6.513786
0
LINE
8
1
62
7
10
9.334522
20
6.536463
11
9.350972
21
6.564809
0
LINE
8
1
62
7
10
9.265184
20
6.613685
11
9.403829
21
6.537236
0
LINE
8
1
62
7
10
9.333904
20
6.536715
11
9.333904
21
6.536715
0
ENDSEC
0
EOF
